ISO-10303-21;
HEADER;
FILE_DESCRIPTION (( 'STEP AP203' ),
    '1' );
FILE_NAME ('AL-HD0015-2 Âûñîêîòî÷íàÿ äèñòàíöèîííàÿ øàéáà 5x10 ìì.STEP',
    '2024-12-12T07:47:11',
    ( '' ),
    ( '' ),
    'SwSTEP 2.0',
    'SolidWorks 2021',
    '' );
FILE_SCHEMA (( 'CONFIG_CONTROL_DESIGN' ));
ENDSEC;

DATA;
#1 = CC_DESIGN_PERSON_AND_ORGANIZATION_ASSIGNMENT ( #21, #98, ( #41 ) ) ;
#2 = VECTOR ( 'NONE', #139, 1000.000000000000000 ) ;
#3 = CARTESIAN_POINT ( 'NONE',  ( 0.000000000000000000, 0.000000000000000000, 0.000000000000000000 ) ) ;
#4 = VECTOR ( 'NONE', #227, 1000.000000000000000 ) ;
#5 = APPLICATION_CONTEXT ( 'configuration controlled 3d designs of mechanical parts and assemblies' ) ;
#6 = LINE ( 'NONE', #133, #222 ) ;
#7 = VERTEX_POINT ( 'NONE', #166 ) ;
#8 = ORIENTED_EDGE ( 'NONE', *, *, #242, .F. ) ;
#9 = CC_DESIGN_PERSON_AND_ORGANIZATION_ASSIGNMENT ( #10, #184, ( #67 ) ) ;
#10 = PERSON_AND_ORGANIZATION ( #48, #53 ) ;
#11 = ORIENTED_EDGE ( 'NONE', *, *, #218, .T. ) ;
#12 = CARTESIAN_POINT ( 'NONE',  ( 0.000000000000000000, 0.000000000000000000, 1.000000000000000000 ) ) ;
#13 = AXIS2_PLACEMENT_3D ( 'NONE', #153, #127, #223 ) ;
#14 = FACE_OUTER_BOUND ( 'NONE', #102, .T. ) ;
#15 = CARTESIAN_POINT ( 'NONE',  ( -5.000000000000000000, 0.000000000000000000, 0.000000000000000000 ) ) ;
#16 = PLANE ( 'NONE',  #81 ) ;
#17 = DATE_AND_TIME ( #129, #204 ) ;
#18 = DIRECTION ( 'NONE',  ( 0.000000000000000000, 0.000000000000000000, 1.000000000000000000 ) ) ;
#19 = APPROVAL_ROLE ( '' ) ;
#20 = MANIFOLD_SOLID_BREP ( 'Áîáûøêà-Âûòÿíóòü1', #105 ) ;
#21 = PERSON_AND_ORGANIZATION ( #48, #53 ) ;
#22 = APPROVAL_ROLE ( '' ) ;
#23 = CIRCLE ( 'NONE', #115, 5.000000000000000000 ) ;
#24 = AXIS2_PLACEMENT_3D ( 'NONE', #225, #18, #173 ) ;
#25 = APPLICATION_CONTEXT ( 'configuration controlled 3d designs of mechanical parts and assemblies' ) ;
#26 = ORIENTED_EDGE ( 'NONE', *, *, #181, .F. ) ;
#27 = PERSON_AND_ORGANIZATION_ROLE ( 'design_supplier' ) ;
#28 = CARTESIAN_POINT ( 'NONE',  ( 0.000000000000000000, 0.000000000000000000, 1.000000000000000000 ) ) ;
#29 = PLANE ( 'NONE',  #226 ) ;
#30 = AXIS2_PLACEMENT_3D ( 'NONE', #237, #68, #199 ) ;
#31 = EDGE_CURVE ( 'NONE', #82, #203, #69, .T. ) ;
#32 = FACE_BOUND ( 'NONE', #73, .T. ) ;
#33 = CIRCLE ( 'NONE', #177, 2.500000000000000000 ) ;
#34 = DIRECTION ( 'NONE',  ( -0.000000000000000000, -0.000000000000000000, -1.000000000000000000 ) ) ;
#35 = FACE_OUTER_BOUND ( 'NONE', #101, .T. ) ;
#36 = LINE ( 'NONE', #231, #4 ) ;
#37 = APPROVAL ( #241, 'UNSPECIFIED' ) ;
#38 = ADVANCED_FACE ( 'NONE', ( #167 ), #47, .T. ) ;
#39 = MECHANICAL_CONTEXT ( 'NONE', #25, 'mechanical' ) ;
#40 = PERSON_AND_ORGANIZATION ( #48, #53 ) ;
#41 = PRODUCT_DEFINITION ( 'UNKNOWN', '', #189, #97 ) ;
#42 = AXIS2_PLACEMENT_3D ( 'NONE', #28, #185, #123 ) ;
#43 = ADVANCED_FACE ( 'NONE', ( #121, #32 ), #29, .T. ) ;
#44 =( GEOMETRIC_REPRESENTATION_CONTEXT ( 3 ) GLOBAL_UNCERTAINTY_ASSIGNED_CONTEXT ( ( #130 ) ) GLOBAL_UNIT_ASSIGNED_CONTEXT ( ( #99, #61, #134 ) ) REPRESENTATION_CONTEXT ( 'NONE', 'WORKASPACE' ) );
#45 = ADVANCED_BREP_SHAPE_REPRESENTATION ( 'AL-HD0015-2 Tv¸þúþªþ¢ýð  ôø¸ªðý¡øþýýð  °ðùñð 5x10 üü', ( #20, #161 ), #44 ) ;
#46 = EDGE_LOOP ( 'NONE', ( #217, #64 ) ) ;
#47 = CYLINDRICAL_SURFACE ( 'NONE', #87, 5.000000000000000000 ) ;
#48 = PERSON ( 'UNSPECIFIED', 'UNSPECIFIED', 'UNSPECIFIED', ('UNSPECIFIED'), ('UNSPECIFIED'), ('UNSPECIFIED') ) ;
#49 = CARTESIAN_POINT ( 'NONE',  ( 0.000000000000000000, 0.000000000000000000, 1.000000000000000000 ) ) ;
#50 = EDGE_LOOP ( 'NONE', ( #214, #163, #245, #232 ) ) ;
#51 = VERTEX_POINT ( 'NONE', #90 ) ;
#52 = PRODUCT_DEFINITION_SHAPE ( 'NONE', 'NONE',  #41 ) ;
#53 = ORGANIZATION ( 'UNSPECIFIED', 'UNSPECIFIED', '' ) ;
#54 = LINE ( 'NONE', #169, #179 ) ;
#55 = DATE_AND_TIME ( #206, #138 ) ;
#56 = CC_DESIGN_PERSON_AND_ORGANIZATION_ASSIGNMENT ( #171, #208, ( #189 ) ) ;
#57 = DIRECTION ( 'NONE',  ( 1.000000000000000000, 0.000000000000000000, 0.000000000000000000 ) ) ;
#58 = DATE_TIME_ROLE ( 'creation_date' ) ;
#59 = FACE_OUTER_BOUND ( 'NONE', #106, .T. ) ;
#60 = DATE_AND_TIME ( #150, #83 ) ;
#61 =( NAMED_UNIT ( * ) PLANE_ANGLE_UNIT ( ) SI_UNIT ( $, .RADIAN. ) );
#62 = ORIENTED_EDGE ( 'NONE', *, *, #113, .T. ) ;
#63 = EDGE_CURVE ( 'NONE', #82, #7, #117, .T. ) ;
#64 = ORIENTED_EDGE ( 'NONE', *, *, #159, .T. ) ;
#65 = CALENDAR_DATE ( 2024, 12, 12 ) ;
#66 = VERTEX_POINT ( 'NONE', #244 ) ;
#67 = SECURITY_CLASSIFICATION ( '', '', #235 ) ;
#68 = DIRECTION ( 'NONE',  ( 0.000000000000000000, 0.000000000000000000, 1.000000000000000000 ) ) ;
#69 = LINE ( 'NONE', #215, #2 ) ;
#70 = CIRCLE ( 'NONE', #240, 5.000000000000000000 ) ;
#71 = COORDINATED_UNIVERSAL_TIME_OFFSET ( 3, 0, .AHEAD. ) ;
#72 = ORIENTED_EDGE ( 'NONE', *, *, #230, .F. ) ;
#73 = EDGE_LOOP ( 'NONE', ( #122, #238 ) ) ;
#74 = ORIENTED_EDGE ( 'NONE', *, *, #113, .F. ) ;
#75 = DIRECTION ( 'NONE',  ( 0.000000000000000000, 0.000000000000000000, 1.000000000000000000 ) ) ;
#76 = DIRECTION ( 'NONE',  ( -0.000000000000000000, -0.000000000000000000, -1.000000000000000000 ) ) ;
#77 = DIRECTION ( 'NONE',  ( 1.000000000000000000, 0.000000000000000000, 0.000000000000000000 ) ) ;
#78 = PERSON_AND_ORGANIZATION_ROLE ( 'design_owner' ) ;
#79 = AXIS2_PLACEMENT_3D ( 'NONE', #221, #75, #77 ) ;
#80 = APPROVAL_DATE_TIME ( #17, #88 ) ;
#81 = AXIS2_PLACEMENT_3D ( 'NONE', #93, #147, #128 ) ;
#82 = VERTEX_POINT ( 'NONE', #219 ) ;
#83 = LOCAL_TIME ( 10, 47, 11.00000000000000000, #175 ) ;
#84 = EDGE_LOOP ( 'NONE', ( #72, #74 ) ) ;
#85 = CALENDAR_DATE ( 2024, 12, 12 ) ;
#86 = ORIENTED_EDGE ( 'NONE', *, *, #159, .F. ) ;
#87 = AXIS2_PLACEMENT_3D ( 'NONE', #49, #201, #144 ) ;
#88 = APPROVAL ( #194, 'UNSPECIFIED' ) ;
#89 = EDGE_CURVE ( 'NONE', #7, #82, #154, .T. ) ;
#90 = CARTESIAN_POINT ( 'NONE',  ( 5.000000000000000000, 6.123233995736766282E-16, 1.000000000000000000 ) ) ;
#91 = ORIENTED_EDGE ( 'NONE', *, *, #31, .F. ) ;
#92 = FACE_OUTER_BOUND ( 'NONE', #84, .T. ) ;
#93 = CARTESIAN_POINT ( 'NONE',  ( 0.000000000000000000, 0.000000000000000000, 0.000000000000000000 ) ) ;
#94 = APPROVAL_DATE_TIME ( #55, #158 ) ;
#95 = CARTESIAN_POINT ( 'NONE',  ( 0.000000000000000000, 0.000000000000000000, 1.000000000000000000 ) ) ;
#96 = PERSON_AND_ORGANIZATION ( #48, #53 ) ;
#97 = DESIGN_CONTEXT ( 'detailed design', #5, 'design' ) ;
#98 = PERSON_AND_ORGANIZATION_ROLE ( 'creator' ) ;
#99 =( LENGTH_UNIT ( ) NAMED_UNIT ( * ) SI_UNIT ( .MILLI., .METRE. ) );
#100 = AXIS2_PLACEMENT_3D ( 'NONE', #95, #76, #149 ) ;
#101 = EDGE_LOOP ( 'NONE', ( #143, #168, #141, #243 ) ) ;
#102 = EDGE_LOOP ( 'NONE', ( #91, #120, #188, #26 ) ) ;
#103 = ADVANCED_FACE ( 'NONE', ( #14 ), #220, .F. ) ;
#104 = VERTEX_POINT ( 'NONE', #207 ) ;
#105 = CLOSED_SHELL ( 'NONE', ( #136, #234, #43, #202, #38, #103 ) ) ;
#106 = EDGE_LOOP ( 'NONE', ( #86, #11, #62, #8 ) ) ;
#107 = APPROVAL_PERSON_ORGANIZATION ( #112, #88, #22 ) ;
#108 = DIRECTION ( 'NONE',  ( -1.000000000000000000, 0.000000000000000000, 0.000000000000000000 ) ) ;
#109 = DIRECTION ( 'NONE',  ( 1.000000000000000000, 0.000000000000000000, 0.000000000000000000 ) ) ;
#110 = DIRECTION ( 'NONE',  ( 0.000000000000000000, 0.000000000000000000, 1.000000000000000000 ) ) ;
#111 = DIRECTION ( 'NONE',  ( 1.000000000000000000, 0.000000000000000000, 0.000000000000000000 ) ) ;
#112 = PERSON_AND_ORGANIZATION ( #48, #53 ) ;
#113 = EDGE_CURVE ( 'NONE', #66, #186, #140, .T. ) ;
#114 = APPLICATION_PROTOCOL_DEFINITION ( 'international standard', 'config_control_design', 1994, #5 ) ;
#115 = AXIS2_PLACEMENT_3D ( 'NONE', #224, #248, #109 ) ;
#116 = ORIENTED_EDGE ( 'NONE', *, *, #198, .T. ) ;
#117 = CIRCLE ( 'NONE', #30, 2.500000000000000000 ) ;
#118 = DATE_AND_TIME ( #85, #212 ) ;
#119 = CIRCLE ( 'NONE', #157, 5.000000000000000000 ) ;
#120 = ORIENTED_EDGE ( 'NONE', *, *, #63, .T. ) ;
#121 = FACE_OUTER_BOUND ( 'NONE', #46, .T. ) ;
#122 = ORIENTED_EDGE ( 'NONE', *, *, #89, .F. ) ;
#123 = DIRECTION ( 'NONE',  ( 1.000000000000000000, 0.000000000000000000, 0.000000000000000000 ) ) ;
#124 = CC_DESIGN_SECURITY_CLASSIFICATION ( #67, ( #189 ) ) ;
#125 = CARTESIAN_POINT ( 'NONE',  ( 0.000000000000000000, 0.000000000000000000, 1.000000000000000000 ) ) ;
#126 = DIRECTION ( 'NONE',  ( 0.000000000000000000, 0.000000000000000000, 1.000000000000000000 ) ) ;
#127 = DIRECTION ( 'NONE',  ( -0.000000000000000000, -0.000000000000000000, -1.000000000000000000 ) ) ;
#128 = DIRECTION ( 'NONE',  ( 1.000000000000000000, 0.000000000000000000, -0.000000000000000000 ) ) ;
#129 = CALENDAR_DATE ( 2024, 12, 12 ) ;
#130 = UNCERTAINTY_MEASURE_WITH_UNIT (LENGTH_MEASURE( 1.000000000000000082E-05 ), #99, 'distance_accuracy_value', 'NONE');
#131 = CIRCLE ( 'NONE', #24, 2.500000000000000000 ) ;
#132 = CYLINDRICAL_SURFACE ( 'NONE', #13, 5.000000000000000000 ) ;
#133 = CARTESIAN_POINT ( 'NONE',  ( -5.000000000000000000, 0.000000000000000000, 1.000000000000000000 ) ) ;
#134 =( NAMED_UNIT ( * ) SI_UNIT ( $, .STERADIAN. ) SOLID_ANGLE_UNIT ( ) );
#135 = DATE_AND_TIME ( #65, #160 ) ;
#136 = ADVANCED_FACE ( 'NONE', ( #35 ), #247, .F. ) ;
#137 = APPROVAL_DATE_TIME ( #135, #37 ) ;
#138 = LOCAL_TIME ( 10, 47, 11.00000000000000000, #148 ) ;
#139 = DIRECTION ( 'NONE',  ( -0.000000000000000000, -0.000000000000000000, -1.000000000000000000 ) ) ;
#140 = CIRCLE ( 'NONE', #79, 5.000000000000000000 ) ;
#141 = ORIENTED_EDGE ( 'NONE', *, *, #198, .F. ) ;
#142 = APPROVAL_ROLE ( '' ) ;
#143 = ORIENTED_EDGE ( 'NONE', *, *, #89, .T. ) ;
#144 = DIRECTION ( 'NONE',  ( -1.000000000000000000, 0.000000000000000000, 0.000000000000000000 ) ) ;
#145 = CC_DESIGN_PERSON_AND_ORGANIZATION_ASSIGNMENT ( #249, #78, ( #197 ) ) ;
#146 = EDGE_LOOP ( 'NONE', ( #116, #233 ) ) ;
#147 = DIRECTION ( 'NONE',  ( 0.000000000000000000, 0.000000000000000000, 1.000000000000000000 ) ) ;
#148 = COORDINATED_UNIVERSAL_TIME_OFFSET ( 3, 0, .AHEAD. ) ;
#149 = DIRECTION ( 'NONE',  ( -1.000000000000000000, 0.000000000000000000, 0.000000000000000000 ) ) ;
#150 = CALENDAR_DATE ( 2024, 12, 12 ) ;
#151 = CARTESIAN_POINT ( 'NONE',  ( 0.000000000000000000, 0.000000000000000000, 1.000000000000000000 ) ) ;
#152 = EDGE_CURVE ( 'NONE', #7, #104, #54, .T. ) ;
#153 = CARTESIAN_POINT ( 'NONE',  ( 0.000000000000000000, 0.000000000000000000, 1.000000000000000000 ) ) ;
#154 = CIRCLE ( 'NONE', #42, 2.500000000000000000 ) ;
#155 = APPROVAL_PERSON_ORGANIZATION ( #182, #37, #142 ) ;
#156 = DIRECTION ( 'NONE',  ( 1.000000000000000000, 0.000000000000000000, 0.000000000000000000 ) ) ;
#157 = AXIS2_PLACEMENT_3D ( 'NONE', #3, #176, #156 ) ;
#158 = APPROVAL ( #178, 'UNSPECIFIED' ) ;
#159 = EDGE_CURVE ( 'NONE', #51, #183, #70, .T. ) ;
#160 = LOCAL_TIME ( 10, 47, 11.00000000000000000, #216 ) ;
#161 = AXIS2_PLACEMENT_3D ( 'NONE', #174, #110, #209 ) ;
#162 = DIRECTION ( 'NONE',  ( 0.000000000000000000, 0.000000000000000000, 1.000000000000000000 ) ) ;
#163 = ORIENTED_EDGE ( 'NONE', *, *, #187, .F. ) ;
#164 = DATE_TIME_ROLE ( 'classification_date' ) ;
#165 = AXIS2_PLACEMENT_3D ( 'NONE', #125, #34, #108 ) ;
#166 = CARTESIAN_POINT ( 'NONE',  ( -2.500000000000000000, 0.000000000000000000, 1.000000000000000000 ) ) ;
#167 = FACE_OUTER_BOUND ( 'NONE', #50, .T. ) ;
#168 = ORIENTED_EDGE ( 'NONE', *, *, #31, .T. ) ;
#169 = CARTESIAN_POINT ( 'NONE',  ( -2.500000000000000000, 0.000000000000000000, 1.000000000000000000 ) ) ;
#170 = CARTESIAN_POINT ( 'NONE',  ( 2.500000000000000000, 3.061616997868383141E-16, 0.000000000000000000 ) ) ;
#171 = PERSON_AND_ORGANIZATION ( #48, #53 ) ;
#172 = CC_DESIGN_PERSON_AND_ORGANIZATION_ASSIGNMENT ( #96, #27, ( #189 ) ) ;
#173 = DIRECTION ( 'NONE',  ( 1.000000000000000000, 0.000000000000000000, 0.000000000000000000 ) ) ;
#174 = CARTESIAN_POINT ( 'NONE',  ( 0.000000000000000000, 0.000000000000000000, 0.000000000000000000 ) ) ;
#175 = COORDINATED_UNIVERSAL_TIME_OFFSET ( 3, 0, .AHEAD. ) ;
#176 = DIRECTION ( 'NONE',  ( 0.000000000000000000, 0.000000000000000000, 1.000000000000000000 ) ) ;
#177 = AXIS2_PLACEMENT_3D ( 'NONE', #191, #246, #57 ) ;
#178 = APPROVAL_STATUS ( 'not_yet_approved' ) ;
#179 = VECTOR ( 'NONE', #192, 1000.000000000000000 ) ;
#180 = CC_DESIGN_DATE_AND_TIME_ASSIGNMENT ( #118, #164, ( #67 ) ) ;
#181 = EDGE_CURVE ( 'NONE', #203, #104, #131, .T. ) ;
#182 = PERSON_AND_ORGANIZATION ( #48, #53 ) ;
#183 = VERTEX_POINT ( 'NONE', #190 ) ;
#184 = PERSON_AND_ORGANIZATION_ROLE ( 'classification_officer' ) ;
#185 = DIRECTION ( 'NONE',  ( 0.000000000000000000, 0.000000000000000000, 1.000000000000000000 ) ) ;
#186 = VERTEX_POINT ( 'NONE', #15 ) ;
#187 = EDGE_CURVE ( 'NONE', #183, #51, #23, .T. ) ;
#188 = ORIENTED_EDGE ( 'NONE', *, *, #152, .T. ) ;
#189 = PRODUCT_DEFINITION_FORMATION_WITH_SPECIFIED_SOURCE ( 'ANY', '', #197, .NOT_KNOWN. ) ;
#190 = CARTESIAN_POINT ( 'NONE',  ( -5.000000000000000000, 0.000000000000000000, 1.000000000000000000 ) ) ;
#191 = CARTESIAN_POINT ( 'NONE',  ( 0.000000000000000000, 0.000000000000000000, 0.000000000000000000 ) ) ;
#192 = DIRECTION ( 'NONE',  ( -0.000000000000000000, -0.000000000000000000, -1.000000000000000000 ) ) ;
#193 = COORDINATED_UNIVERSAL_TIME_OFFSET ( 3, 0, .AHEAD. ) ;
#194 = APPROVAL_STATUS ( 'not_yet_approved' ) ;
#195 = CC_DESIGN_APPROVAL ( #88, ( #41 ) ) ;
#196 = PRODUCT_RELATED_PRODUCT_CATEGORY ( 'detail', '', ( #197 ) ) ;
#197 = PRODUCT ( 'AL-HD0015-2 Âûñîêîòî÷íàÿ äèñòàíöèîííàÿ øàéáà 5x10 ìì', 'AL-HD0015-2 Âûñîêîòî÷íàÿ äèñòàíöèîííàÿ øàéáà 5x10 ìì', '', ( #39 ) ) ;
#198 = EDGE_CURVE ( 'NONE', #104, #203, #33, .T. ) ;
#199 = DIRECTION ( 'NONE',  ( 1.000000000000000000, 0.000000000000000000, 0.000000000000000000 ) ) ;
#200 = DIRECTION ( 'NONE',  ( 1.000000000000000000, 0.000000000000000000, -0.000000000000000000 ) ) ;
#201 = DIRECTION ( 'NONE',  ( -0.000000000000000000, -0.000000000000000000, -1.000000000000000000 ) ) ;
#202 = ADVANCED_FACE ( 'NONE', ( #92, #205 ), #16, .F. ) ;
#203 = VERTEX_POINT ( 'NONE', #170 ) ;
#204 = LOCAL_TIME ( 10, 47, 11.00000000000000000, #193 ) ;
#205 = FACE_BOUND ( 'NONE', #146, .T. ) ;
#206 = CALENDAR_DATE ( 2024, 12, 12 ) ;
#207 = CARTESIAN_POINT ( 'NONE',  ( -2.500000000000000000, 0.000000000000000000, 0.000000000000000000 ) ) ;
#208 = PERSON_AND_ORGANIZATION_ROLE ( 'creator' ) ;
#209 = DIRECTION ( 'NONE',  ( 1.000000000000000000, 0.000000000000000000, 0.000000000000000000 ) ) ;
#210 = APPLICATION_PROTOCOL_DEFINITION ( 'international standard', 'config_control_design', 1994, #25 ) ;
#211 = SHAPE_DEFINITION_REPRESENTATION ( #52, #45 ) ;
#212 = LOCAL_TIME ( 10, 47, 11.00000000000000000, #71 ) ;
#213 = APPROVAL_PERSON_ORGANIZATION ( #40, #158, #19 ) ;
#214 = ORIENTED_EDGE ( 'NONE', *, *, #218, .F. ) ;
#215 = CARTESIAN_POINT ( 'NONE',  ( 2.500000000000000000, 3.061616997868383141E-16, 1.000000000000000000 ) ) ;
#216 = COORDINATED_UNIVERSAL_TIME_OFFSET ( 3, 0, .AHEAD. ) ;
#217 = ORIENTED_EDGE ( 'NONE', *, *, #187, .T. ) ;
#218 = EDGE_CURVE ( 'NONE', #51, #66, #36, .T. ) ;
#219 = CARTESIAN_POINT ( 'NONE',  ( 2.500000000000000000, 3.061616997868383141E-16, 1.000000000000000000 ) ) ;
#220 = CYLINDRICAL_SURFACE ( 'NONE', #165, 2.500000000000000000 ) ;
#221 = CARTESIAN_POINT ( 'NONE',  ( 0.000000000000000000, 0.000000000000000000, 0.000000000000000000 ) ) ;
#222 = VECTOR ( 'NONE', #229, 1000.000000000000000 ) ;
#223 = DIRECTION ( 'NONE',  ( -1.000000000000000000, 0.000000000000000000, 0.000000000000000000 ) ) ;
#224 = CARTESIAN_POINT ( 'NONE',  ( 0.000000000000000000, 0.000000000000000000, 1.000000000000000000 ) ) ;
#225 = CARTESIAN_POINT ( 'NONE',  ( 0.000000000000000000, 0.000000000000000000, 0.000000000000000000 ) ) ;
#226 = AXIS2_PLACEMENT_3D ( 'NONE', #12, #162, #200 ) ;
#227 = DIRECTION ( 'NONE',  ( -0.000000000000000000, -0.000000000000000000, -1.000000000000000000 ) ) ;
#228 = CC_DESIGN_APPROVAL ( #37, ( #67 ) ) ;
#229 = DIRECTION ( 'NONE',  ( -0.000000000000000000, -0.000000000000000000, -1.000000000000000000 ) ) ;
#230 = EDGE_CURVE ( 'NONE', #186, #66, #119, .T. ) ;
#231 = CARTESIAN_POINT ( 'NONE',  ( 5.000000000000000000, 6.123233995736766282E-16, 1.000000000000000000 ) ) ;
#232 = ORIENTED_EDGE ( 'NONE', *, *, #230, .T. ) ;
#233 = ORIENTED_EDGE ( 'NONE', *, *, #181, .T. ) ;
#234 = ADVANCED_FACE ( 'NONE', ( #59 ), #132, .T. ) ;
#235 = SECURITY_CLASSIFICATION_LEVEL ( 'unclassified' ) ;
#236 = CC_DESIGN_APPROVAL ( #158, ( #189 ) ) ;
#237 = CARTESIAN_POINT ( 'NONE',  ( 0.000000000000000000, 0.000000000000000000, 1.000000000000000000 ) ) ;
#238 = ORIENTED_EDGE ( 'NONE', *, *, #63, .F. ) ;
#239 = CC_DESIGN_DATE_AND_TIME_ASSIGNMENT ( #60, #58, ( #41 ) ) ;
#240 = AXIS2_PLACEMENT_3D ( 'NONE', #151, #126, #111 ) ;
#241 = APPROVAL_STATUS ( 'not_yet_approved' ) ;
#242 = EDGE_CURVE ( 'NONE', #183, #186, #6, .T. ) ;
#243 = ORIENTED_EDGE ( 'NONE', *, *, #152, .F. ) ;
#244 = CARTESIAN_POINT ( 'NONE',  ( 5.000000000000000000, 6.123233995736766282E-16, 0.000000000000000000 ) ) ;
#245 = ORIENTED_EDGE ( 'NONE', *, *, #242, .T. ) ;
#246 = DIRECTION ( 'NONE',  ( 0.000000000000000000, 0.000000000000000000, 1.000000000000000000 ) ) ;
#247 = CYLINDRICAL_SURFACE ( 'NONE', #100, 2.500000000000000000 ) ;
#248 = DIRECTION ( 'NONE',  ( 0.000000000000000000, 0.000000000000000000, 1.000000000000000000 ) ) ;
#249 = PERSON_AND_ORGANIZATION ( #48, #53 ) ;
ENDSEC;
END-ISO-10303-21;
